  0
SECTION
  2
HEADER
  9
$ACADVER
  1
AC1015
  9
$ACADMAINTVER
 70
    18
  9
$DWGCODEPAGE
  3
ANSI_1252
  9
$INSBASE
 10
0.0
 20
0.0
 30
0.0
  9
$EXTMIN
 10
29.19139205956922
 20
41.42249061643241
 30
-0.00000001
  9
$EXTMAX
 10
106.6949883785473
 20
71.96713351019869
 30
0.00000001
  9
$LIMMIN
 10
0.0
 20
0.0
  9
$LIMMAX
 10
132.0
 20
102.0
  9
$ORTHOMODE
 70
     0
  9
$REGENMODE
 70
     1
  9
$FILLMODE
 70
     1
  9
$QTEXTMODE
 70
     0
  9
$MIRRTEXT
 70
     0
  9
$LTSCALE
 40
1.0
  9
$ATTMODE
 70
     1
  9
$TEXTSIZE
 40
0.9600000000000001
  9
$TRACEWID
 40
0.05
  9
$TEXTSTYLE
  7
Standard
  9
$CLAYER
  8
0
  9
$CELTYPE
  6
ByLayer
  9
$CECOLOR
 62
     7
  9
$CELTSCALE
 40
1.0
  9
$DISPSILH
 70
     0
  9
$DIMSCALE
 40
1.0
  9
$DIMASZ
 40
0.18
  9
$DIMEXO
 40
0.0625
  9
$DIMDLI
 40
0.38
  9
$DIMRND
 40
0.0
  9
$DIMDLE
 40
0.0
  9
$DIMEXE
 40
0.18
  9
$DIMTP
 40
0.0
  9
$DIMTM
 40
0.0
  9
$DIMTXT
 40
1.2
  9
$DIMCEN
 40
0.09
  9
$DIMTSZ
 40
0.0
  9
$DIMTOL
 70
     0
  9
$DIMLIM
 70
     0
  9
$DIMTIH
 70
     1
  9
$DIMTOH
 70
     1
  9
$DIMSE1
 70
     0
  9
$DIMSE2
 70
     0
  9
$DIMTAD
 70
     0
  9
$DIMZIN
 70
     0
  9
$DIMBLK
  1

  9
$DIMASO
 70
     1
  9
$DIMSHO
 70
     1
  9
$DIMPOST
  1

  9
$DIMAPOST
  1

  9
$DIMALT
 70
     0
  9
$DIMALTD
 70
     2
  9
$DIMALTF
 40
25.4
  9
$DIMLFAC
 40
1.0
  9
$DIMTOFL
 70
     0
  9
$DIMTVP
 40
0.0
  9
$DIMTIX
 70
     0
  9
$DIMSOXD
 70
     0
  9
$DIMSAH
 70
     0
  9
$DIMBLK1
  1

  9
$DIMBLK2
  1

  9
$DIMSTYLE
  2
Standard
  9
$DIMCLRD
 70
     0
  9
$DIMCLRE
 70
     0
  9
$DIMCLRT
 70
     0
  9
$DIMTFAC
 40
1.0
  9
$DIMGAP
 40
0.09
  9
$DIMJUST
 70
     0
  9
$DIMSD1
 70
     0
  9
$DIMSD2
 70
     0
  9
$DIMTOLJ
 70
     1
  9
$DIMTZIN
 70
     0
  9
$DIMALTZ
 70
     0
  9
$DIMALTTZ
 70
     0
  9
$DIMUPT
 70
     0
  9
$DIMDEC
 70
     2
  9
$DIMTDEC
 70
     4
  9
$DIMALTU
 70
     2
  9
$DIMALTTD
 70
     2
  9
$DIMTXSTY
  7
Standard
  9
$DIMAUNIT
 70
     1
  9
$DIMADEC
 70
     0
  9
$DIMALTRND
 40
0.0
  9
$DIMAZIN
 70
     0
  9
$DIMDSEP
 70
    46
  9
$DIMATFIT
 70
     3
  9
$DIMFRAC
 70
     0
  9
$DIMLDRBLK
  1

  9
$DIMLUNIT
 70
     4
  9
$DIMLWD
 70
    -2
  9
$DIMLWE
 70
    -2
  9
$DIMTMOVE
 70
     0
  9
$LUNITS
 70
     2
  9
$LUPREC
 70
     2
  9
$SKETCHINC
 40
0.1
  9
$FILLETRAD
 40
0.25
  9
$AUNITS
 70
     0
  9
$AUPREC
 70
     2
  9
$MENU
  1
.
  9
$ELEVATION
 40
0.0
  9
$PELEVATION
 40
0.0
  9
$THICKNESS
 40
0.0
  9
$LIMCHECK
 70
     0
  9
$CHAMFERA
 40
0.25
  9
$CHAMFERB
 40
0.25
  9
$CHAMFERC
 40
0.0
  9
$CHAMFERD
 40
0.0
  9
$SKPOLY
 70
     0
  9
$TDCREATE
 40
2455183.437664746
  9
$TDUCREATE
 40
2455183.770998079
  9
$TDUPDATE
 40
2455183.437664746
  9
$TDUUPDATE
 40
2455183.770998079
  9
$TDINDWG
 40
0.0000050579
  9
$TDUSRTIMER
 40
0.0000050579
  9
$USRTIMER
 70
     1
  9
$ANGBASE
 50
0.0
  9
$ANGDIR
 70
     0
  9
$PDMODE
 70
     0
  9
$PDSIZE
 40
0.0
  9
$PLINEWID
 40
0.0
  9
$SPLFRAME
 70
     0
  9
$SPLINETYPE
 70
     6
  9
$SPLINESEGS
 70
     8
  9
$HANDSEED
  5
BB
  9
$SURFTAB1
 70
     6
  9
$SURFTAB2
 70
     6
  9
$SURFTYPE
 70
     6
  9
$SURFU
 70
     6
  9
$SURFV
 70
     6
  9
$UCSBASE
  2

  9
$UCSNAME
  2

  9
$UCSORG
 10
0.0
 20
0.0
 30
0.0
  9
$UCSXDIR
 10
1.0
 20
0.0
 30
0.0
  9
$UCSYDIR
 10
0.0
 20
1.0
 30
0.0
  9
$UCSORTHOREF
  2

  9
$UCSORTHOVIEW
 70
     0
  9
$UCSORGTOP
 10
0.0
 20
0.0
 30
0.0
  9
$UCSORGBOTTOM
 10
0.0
 20
0.0
 30
0.0
  9
$UCSORGLEFT
 10
0.0
 20
0.0
 30
0.0
  9
$UCSORGRIGHT
 10
0.0
 20
0.0
 30
0.0
  9
$UCSORGFRONT
 10
0.0
 20
0.0
 30
0.0
  9
$UCSORGBACK
 10
0.0
 20
0.0
 30
0.0
  9
$PUCSBASE
  2

  9
$PUCSNAME
  2

  9
$PUCSORG
 10
0.0
 20
0.0
 30
0.0
  9
$PUCSXDIR
 10
1.0
 20
0.0
 30
0.0
  9
$PUCSYDIR
 10
0.0
 20
1.0
 30
0.0
  9
$PUCSORTHOREF
  2

  9
$PUCSORTHOVIEW
 70
     0
  9
$PUCSORGTOP
 10
0.0
 20
0.0
 30
0.0
  9
$PUCSORGBOTTOM
 10
0.0
 20
0.0
 30
0.0
  9
$PUCSORGLEFT
 10
0.0
 20
0.0
 30
0.0
  9
$PUCSORGRIGHT
 10
0.0
 20
0.0
 30
0.0
  9
$PUCSORGFRONT
 10
0.0
 20
0.0
 30
0.0
  9
$PUCSORGBACK
 10
0.0
 20
0.0
 30
0.0
  9
$USERI1
 70
     0
  9
$USERI2
 70
     0
  9
$USERI3
 70
     0
  9
$USERI4
 70
     0
  9
$USERI5
 70
     0
  9
$USERR1
 40
0.0
  9
$USERR2
 40
0.0
  9
$USERR3
 40
0.0
  9
$USERR4
 40
0.0
  9
$USERR5
 40
0.0
  9
$WORLDVIEW
 70
     1
  9
$SHADEDGE
 70
     3
  9
$SHADEDIF
 70
    70
  9
$TILEMODE
 70
     1
  9
$MAXACTVP
 70
    64
  9
$PINSBASE
 10
0.0
 20
0.0
 30
0.0
  9
$PLIMCHECK
 70
     0
  9
$PEXTMIN
 10
1.000000000000000E+20
 20
1.000000000000000E+20
 30
1.000000000000000E+20
  9
$PEXTMAX
 10
-1.000000000000000E+20
 20
-1.000000000000000E+20
 30
-1.000000000000000E+20
  9
$PLIMMIN
 10
0.0
 20
0.0
  9
$PLIMMAX
 10
12.0
 20
9.0
  9
$UNITMODE
 70
     0
  9
$VISRETAIN
 70
     1
  9
$PLINEGEN
 70
     0
  9
$PSLTSCALE
 70
     1
  9
$TREEDEPTH
 70
  3020
  9
$CMLSTYLE
  2
Standard
  9
$CMLJUST
 70
     0
  9
$CMLSCALE
 40
1.0
  9
$PROXYGRAPHICS
 70
     1
  9
$MEASUREMENT
 70
     0
  9
$CELWEIGHT
370
    -1
  9
$ENDCAPS
280
     0
  9
$JOINSTYLE
280
     0
  9
$LWDISPLAY
290
     0
  9
$INSUNITS
 70
     0
  9
$HYPERLINKBASE
  1

  9
$STYLESHEET
  1

  9
$XEDIT
290
     1
  9
$CEPSNTYPE
380
     0
  9
$PSTYLEMODE
290
     1
  9
$FINGERPRINTGUID
  2
{22D6E2A5-0B77-4F82-A313-A3E7AEE32776}
  9
$VERSIONGUID
  2
{6E130489-538E-4BB7-BBB3-80D3FA2C5228}
  9
$EXTNAMES
290
     1
  9
$PSVPSCALE
 40
0.0
  9
$OLESTARTUP
290
     0
  0
ENDSEC
  0
SECTION
  2
CLASSES
  0
CLASS
  1
ACDBDICTIONARYWDFLT
  2
AcDbDictionaryWithDefault
  3
ObjectDBX Classes
 90
        0
280
     0
281
     0
  0
CLASS
  1
DICTIONARYVAR
  2
AcDbDictionaryVar
  3
ObjectDBX Classes
 90
        0
280
     0
281
     0
  0
CLASS
  1
ACDBPLACEHOLDER
  2
AcDbPlaceHolder
  3
ObjectDBX Classes
 90
        0
280
     0
281
     0
  0
CLASS
  1
LAYOUT
  2
AcDbLayout
  3
ObjectDBX Classes
 90
        0
280
     0
281
     0
  0
ENDSEC
  0
SECTION
  2
TABLES
  0
TABLE
  2
VPORT
  5
8
330
0
100
AcDbSymbolTable
 70
     1
  0
VPORT
  5
13
330
8
100
AcDbSymbolTableRecord
100
AcDbViewportTableRecord
  2
*Active
 70
     0
 10
0.0
 20
0.0
 11
1.0
 21
1.0
 12
66.0
 22
51.0
 13
0.0
 23
0.0
 14
1.0
 24
1.0
 15
0.0
 25
0.0
 16
0.0
 26
0.0
 36
1.0
 17
0.0
 27
0.0
 37
0.0
 40
102.0
 41
1.294117647058823
 42
50.0
 43
0.0
 44
0.0
 50
0.0
 51
0.0
 71
     0
 72
   100
 73
     1
 74
     1
 75
     0
 76
     0
 77
     0
 78
     0
281
     0
 65
     1
110
0.0
120
0.0
130
0.0
111
1.0
121
0.0
131
0.0
112
0.0
122
1.0
132
0.0
 79
     0
146
0.0
  0
ENDTAB
  0
TABLE
  2
LTYPE
  5
5
330
0
100
AcDbSymbolTable
 70
    40
  0
LTYPE
  5
14
330
5
100
AcDbSymbolTableRecord
100
AcDbLinetypeTableRecord
  2
ByBlock
 70
     0
  3

 72
    65
 73
     0
 40
0.0
  0
LTYPE
  5
15
330
5
100
AcDbSymbolTableRecord
100
AcDbLinetypeTableRecord
  2
ByLayer
 70
     0
  3

 72
    65
 73
     0
 40
0.0
  0
LTYPE
  5
16
330
5
100
AcDbSymbolTableRecord
100
AcDbLinetypeTableRecord
  2
Continuous
 70
     0
  3
Solid line
 72
    65
 73
     0
 40
0.0
  0
LTYPE
  5
2A
330
5
100
AcDbSymbolTableRecord
100
AcDbLinetypeTableRecord
  2
HIDDEN
 70
     0
  3
_ _ _ _ _ _ _ _ _ _ _ _ _ _ 
 72
    65
 73
     2
 40
0.375
 49
0.25
 74
     0
 49
-0.125
 74
     0
  0
LTYPE
  5
2B
330
5
100
AcDbSymbolTableRecord
100
AcDbLinetypeTableRecord
  2
DASHED
 70
     0
  3
__ __ __ __ __ __ __ __ __ 
 72
    65
 73
     2
 40
0.75
 49
0.5
 74
     0
 49
-0.25
 74
     0
  0
LTYPE
  5
2C
330
5
100
AcDbSymbolTableRecord
100
AcDbLinetypeTableRecord
  2
CENTER
 70
     0
  3
____ _ ____ _ ____ _ ____ _ 
 72
    65
 73
     4
 40
2.0
 49
1.25
 74
     0
 49
-0.25
 74
     0
 49
0.25
 74
     0
 49
-0.25
 74
     0
  0
LTYPE
  5
2D
330
5
100
AcDbSymbolTableRecord
100
AcDbLinetypeTableRecord
  2
PHANTOM
 70
     0
  3
_____ _ _ _____ _ _ _____ _ _ 
 72
    65
 73
     6
 40
2.5
 49
1.25
 74
     0
 49
-0.25
 74
     0
 49
0.25
 74
     0
 49
-0.25
 74
     0
 49
0.25
 74
     0
 49
-0.25
 74
     0
  0
LTYPE
  5
2E
330
5
100
AcDbSymbolTableRecord
100
AcDbLinetypeTableRecord
  2
DOT
 70
     0
  3
...........................
 72
    65
 73
     2
 40
0.25
 49
0.0
 74
     0
 49
-0.25
 74
     0
  0
LTYPE
  5
2F
330
5
100
AcDbSymbolTableRecord
100
AcDbLinetypeTableRecord
  2
DASHDOT
 70
     0
  3
__ . __ . __ . __ . __ . __ . 
 72
    65
 73
     4
 40
1.0
 49
0.5
 74
     0
 49
-0.25
 74
     0
 49
0.0
 74
     0
 49
-0.25
 74
     0
  0
LTYPE
  5
30
330
5
100
AcDbSymbolTableRecord
100
AcDbLinetypeTableRecord
  2
DIVIDE
 70
     0
  3
__ . . __ . . __ . . __ . . 
 72
    65
 73
     6
 40
1.25
 49
0.5
 74
     0
 49
-0.25
 74
     0
 49
0.0
 74
     0
 49
-0.25
 74
     0
 49
0.0
 74
     0
 49
-0.25
 74
     0
  0
LTYPE
  5
31
330
5
100
AcDbSymbolTableRecord
100
AcDbLinetypeTableRecord
  2
BORDER
 70
     0
  3
__ __ . __ __ . __ __ . __ __ .
 72
    65
 73
     6
 40
1.75
 49
0.5
 74
     0
 49
-0.25
 74
     0
 49
0.5
 74
     0
 49
-0.25
 74
     0
 49
0.0
 74
     0
 49
-0.25
 74
     0
  0
LTYPE
  5
32
330
5
100
AcDbSymbolTableRecord
100
AcDbLinetypeTableRecord
  2
BORDER2
 70
     0
  3
Border (.5x) __.__.__.__.__.__.
 72
    65
 73
     6
 40
0.875
 49
0.25
 74
     0
 49
-0.125
 74
     0
 49
0.25
 74
     0
 49
-0.125
 74
     0
 49
0.0
 74
     0
 49
-0.125
 74
     0
  0
LTYPE
  5
33
330
5
100
AcDbSymbolTableRecord
100
AcDbLinetypeTableRecord
  2
BORDERX2
 70
     0
  3
Border (2x) ____  ____  .  ____
 72
    65
 73
     6
 40
3.5
 49
1.0
 74
     0
 49
-0.5
 74
     0
 49
1.0
 74
     0
 49
-0.5
 74
     0
 49
0.0
 74
     0
 49
-0.5
 74
     0
  0
LTYPE
  5
34
330
5
100
AcDbSymbolTableRecord
100
AcDbLinetypeTableRecord
  2
CENTER2
 70
     0
  3
Center (.5x) ___ _ ___ _ ___ _ 
 72
    65
 73
     4
 40
1.125
 49
0.7500000000000001
 74
     0
 49
-0.125
 74
     0
 49
0.125
 74
     0
 49
-0.125
 74
     0
  0
LTYPE
  5
35
330
5
100
AcDbSymbolTableRecord
100
AcDbLinetypeTableRecord
  2
CENTERX2
 70
     0
  3
Center (2x) ________  __  _____
 72
    65
 73
     4
 40
4.0
 49
2.5
 74
     0
 49
-0.5
 74
     0
 49
0.5
 74
     0
 49
-0.5
 74
     0
  0
LTYPE
  5
36
330
5
100
AcDbSymbolTableRecord
100
AcDbLinetypeTableRecord
  2
DASHDOT2
 70
     0
  3
Dash dot (.5x) _._._._._._._._.
 72
    65
 73
     4
 40
0.5
 49
0.25
 74
     0
 49
-0.125
 74
     0
 49
0.0
 74
     0
 49
-0.125
 74
     0
  0
LTYPE
  5
37
330
5
100
AcDbSymbolTableRecord
100
AcDbLinetypeTableRecord
  2
DASHDOTX2
 70
     0
  3
Dash dot (2x) ____  .  ____  . 
 72
    65
 73
     4
 40
2.0
 49
1.0
 74
     0
 49
-0.5
 74
     0
 49
0.0
 74
     0
 49
-0.5
 74
     0
  0
LTYPE
  5
38
330
5
100
AcDbSymbolTableRecord
100
AcDbLinetypeTableRecord
  2
DASHED2
 70
     0
  3
Dashed (.5x) _ _ _ _ _ _ _ _ _ 
 72
    65
 73
     2
 40
0.375
 49
0.25
 74
     0
 49
-0.125
 74
     0
  0
LTYPE
  5
39
330
5
100
AcDbSymbolTableRecord
100
AcDbLinetypeTableRecord
  2
DASHEDX2
 70
     0
  3
Dashed (2x) ____  ____  ____  _
 72
    65
 73
     2
 40
1.5
 49
1.0
 74
     0
 49
-0.5
 74
     0
  0
LTYPE
  5
3A
330
5
100
AcDbSymbolTableRecord
100
AcDbLinetypeTableRecord
  2
DIVIDE2
 70
     0
  3
Divide (.5x) __..__..__..__..__
 72
    65
 73
     6
 40
0.625
 49
0.25
 74
     0
 49
-0.125
 74
     0
 49
0.0
 74
     0
 49
-0.125
 74
     0
 49
0.0
 74
     0
 49
-0.125
 74
     0
  0
LTYPE
  5
3B
330
5
100
AcDbSymbolTableRecord
100
AcDbLinetypeTableRecord
  2
DIVIDEX2
 70
     0
  3
Divide (2x) ________  .  .  ___
 72
    65
 73
     6
 40
2.5
 49
1.0
 74
     0
 49
-0.5
 74
     0
 49
0.0
 74
     0
 49
-0.5
 74
     0
 49
0.0
 74
     0
 49
-0.5
 74
     0
  0
LTYPE
  5
3C
330
5
100
AcDbSymbolTableRecord
100
AcDbLinetypeTableRecord
  2
DOT2
 70
     0
  3
Dot (.5x) .....................
 72
    65
 73
     2
 40
0.125
 49
0.0
 74
     0
 49
-0.125
 74
     0
  0
LTYPE
  5
3D
330
5
100
AcDbSymbolTableRecord
100
AcDbLinetypeTableRecord
  2
DOTX2
 70
     0
  3
Dot (2x) .  .  .  .  .  .  .  .
 72
    65
 73
     2
 40
0.5
 49
0.0
 74
     0
 49
-0.5
 74
     0
  0
LTYPE
  5
3E
330
5
100
AcDbSymbolTableRecord
100
AcDbLinetypeTableRecord
  2
HIDDEN2
 70
     0
  3
Hidden (.5x) _ _ _ _ _ _ _ _ _ 
 72
    65
 73
     2
 40
0.1875
 49
0.125
 74
     0
 49
-0.0625
 74
     0
  0
LTYPE
  5
3F
330
5
100
AcDbSymbolTableRecord
100
AcDbLinetypeTableRecord
  2
HIDDENX2
 70
     0
  3
Hidden (2x) ____ ____ ____ ____
 72
    65
 73
     2
 40
0.75
 49
0.5
 74
     0
 49
-0.25
 74
     0
  0
LTYPE
  5
40
330
5
100
AcDbSymbolTableRecord
100
AcDbLinetypeTableRecord
  2
PHANTOM2
 70
     0
  3
Phantom (.5x) ___ _ _ ___ _ _ _
 72
    65
 73
     6
 40
1.25
 49
0.6250000000000001
 74
     0
 49
-0.125
 74
     0
 49
0.125
 74
     0
 49
-0.125
 74
     0
 49
0.125
 74
     0
 49
-0.125
 74
     0
  0
LTYPE
  5
41
330
5
100
AcDbSymbolTableRecord
100
AcDbLinetypeTableRecord
  2
PHANTOMX2
 70
     0
  3
Phantom (2x) ____________    __
 72
    65
 73
     6
 40
5.0
 49
2.5
 74
     0
 49
-0.5
 74
     0
 49
0.5
 74
     0
 49
-0.5
 74
     0
 49
0.5
 74
     0
 49
-0.5
 74
     0
  0
LTYPE
  5
42
330
5
100
AcDbSymbolTableRecord
100
AcDbLinetypeTableRecord
  2
DOTS
 70
     0
  3
Dots - - - - - - - - - - - - - 
 72
    65
 73
     2
 40
0.1
 49
0.05
 74
     0
 49
-0.05
 74
     0
  0
LTYPE
  5
43
330
5
100
AcDbSymbolTableRecord
100
AcDbLinetypeTableRecord
  2
ACAD_ISO02W100
 70
     0
  3
__ __ __ __ __ __ __ __ __ __ _
 72
    65
 73
     2
 40
15.0
 49
12.0
 74
     0
 49
-3.0
 74
     0
  0
LTYPE
  5
44
330
5
100
AcDbSymbolTableRecord
100
AcDbLinetypeTableRecord
  2
ACAD_ISO03W100
 70
     0
  3
__    __    __    __    __    _
 72
    65
 73
     2
 40
30.0
 49
12.0
 74
     0
 49
-18.0
 74
     0
  0
LTYPE
  5
45
330
5
100
AcDbSymbolTableRecord
100
AcDbLinetypeTableRecord
  2
ACAD_ISO04W100
 70
     0
  3
____ . ____ . ____ . ____ . ___
 72
    65
 73
     4
 40
30.5
 49
24.0
 74
     0
 49
-3.0
 74
     0
 49
0.5
 74
     0
 49
-3.0
 74
     0
  0
LTYPE
  5
46
330
5
100
AcDbSymbolTableRecord
100
AcDbLinetypeTableRecord
  2
ACAD_ISO05W100
 70
     0
  3
____ .. ____ .. ____ .. ____ ..
 72
    65
 73
     6
 40
34.0
 49
24.0
 74
     0
 49
-3.0
 74
     0
 49
0.5
 74
     0
 49
-3.0
 74
     0
 49
0.5
 74
     0
 49
-3.0
 74
     0
  0
LTYPE
  5
47
330
5
100
AcDbSymbolTableRecord
100
AcDbLinetypeTableRecord
  2
ACAD_ISO06W100
 70
     0
  3
____ ... ____ ... ____ ... ____
 72
    65
 73
     6
 40
34.0
 49
24.0
 74
     0
 49
-3.0
 74
     0
 49
0.5
 74
     0
 49
-3.0
 74
     0
 49
0.5
 74
     0
 49
-3.0
 74
     0
  0
LTYPE
  5
48
330
5
100
AcDbSymbolTableRecord
100
AcDbLinetypeTableRecord
  2
ACAD_ISO07W100
 70
     0
  3
. . . . . . . . . . . . . . . .
 72
    65
 73
     2
 40
3.5
 49
0.5
 74
     0
 49
-3.0
 74
     0
  0
LTYPE
  5
49
330
5
100
AcDbSymbolTableRecord
100
AcDbLinetypeTableRecord
  2
ACAD_ISO08W100
 70
     0
  3
____ __ ____ __ ____ __ ____ __
 72
    65
 73
     4
 40
36.0
 49
24.0
 74
     0
 49
-3.0
 74
     0
 49
6.0
 74
     0
 49
-3.0
 74
     0
  0
LTYPE
  5
4A
330
5
100
AcDbSymbolTableRecord
100
AcDbLinetypeTableRecord
  2
ACAD_ISO09W100
 70
     0
  3
____ __ __ ____ __ __ ____ __ _
 72
    65
 73
     6
 40
45.0
 49
24.0
 74
     0
 49
-3.0
 74
     0
 49
6.0
 74
     0
 49
-3.0
 74
     0
 49
6.0
 74
     0
 49
-3.0
 74
     0
  0
LTYPE
  5
4B
330
5
100
AcDbSymbolTableRecord
100
AcDbLinetypeTableRecord
  2
ACAD_ISO10W100
 70
     0
  3
__ . __ . __ . __ . __ . __ . _
 72
    65
 73
     4
 40
18.5
 49
12.0
 74
     0
 49
-3.0
 74
     0
 49
0.5
 74
     0
 49
-3.0
 74
     0
  0
LTYPE
  5
4C
330
5
100
AcDbSymbolTableRecord
100
AcDbLinetypeTableRecord
  2
ACAD_ISO11W100
 70
     0
  3
__ __ . __ __ . __ __ . __ __ .
 72
    65
 73
     6
 40
33.5
 49
12.0
 74
     0
 49
-3.0
 74
     0
 49
12.0
 74
     0
 49
-3.0
 74
     0
 49
0.5
 74
     0
 49
-3.0
 74
     0
  0
LTYPE
  5
4D
330
5
100
AcDbSymbolTableRecord
100
AcDbLinetypeTableRecord
  2
ACAD_ISO12W100
 70
     0
  3
__ . . __ . . __ . . __ . . __ 
 72
    65
 73
     6
 40
22.0
 49
12.0
 74
     0
 49
-3.0
 74
     0
 49
0.5
 74
     0
 49
-3.0
 74
     0
 49
0.5
 74
     0
 49
-3.0
 74
     0
  0
LTYPE
  5
4E
330
5
100
AcDbSymbolTableRecord
100
AcDbLinetypeTableRecord
  2
ACAD_ISO13W100
 70
     0
  3
__ __ . . __ __ . . __ __ . . _
 72
    65
 73
     6
 40
33.5
 49
12.0
 74
     0
 49
-3.0
 74
     0
 49
12.0
 74
     0
 49
-3.0
 74
     0
 49
0.5
 74
     0
 49
-3.0
 74
     0
  0
LTYPE
  5
4F
330
5
100
AcDbSymbolTableRecord
100
AcDbLinetypeTableRecord
  2
ACAD_ISO14W100
 70
     0
  3
__ . . . __ . . . __ . . . __ .
 72
    65
 73
     6
 40
22.0
 49
12.0
 74
     0
 49
-3.0
 74
     0
 49
0.5
 74
     0
 49
-3.0
 74
     0
 49
0.5
 74
     0
 49
-3.0
 74
     0
  0
LTYPE
  5
50
330
5
100
AcDbSymbolTableRecord
100
AcDbLinetypeTableRecord
  2
ACAD_ISO15W100
 70
     0
  3
__ __ . . . __ __ . . . __ __ .
 72
    65
 73
     6
 40
33.5
 49
12.0
 74
     0
 49
-3.0
 74
     0
 49
12.0
 74
     0
 49
-3.0
 74
     0
 49
0.5
 74
     0
 49
-3.0
 74
     0
  0
ENDTAB
  0
TABLE
  2
LAYER
  5
2
330
0
100
AcDbSymbolTable
 70
     2
  0
LAYER
  5
10
330
2
100
AcDbSymbolTableRecord
100
AcDbLayerTableRecord
  2
0
 70
     0
 62
     7
  6
Continuous
370
    -3
390
F
  0
LAYER
  5
51
330
2
100
AcDbSymbolTableRecord
100
AcDbLayerTableRecord
  2
1
 70
     0
 62
     7
  6
Continuous
370
    -3
390
F
  0
ENDTAB
  0
TABLE
  2
STYLE
  5
3
330
0
100
AcDbSymbolTable
 70
     4
  0
STYLE
  5
11
330
3
100
AcDbSymbolTableRecord
100
AcDbTextStyleTableRecord
  2
Standard
 70
     0
 40
0.0
 41
1.0
 50
0.0
 71
     0
 42
0.9600000000000001
  3
txt
  4

  0
STYLE
  5
52
330
3
100
AcDbSymbolTableRecord
100
AcDbTextStyleTableRecord
  2
ITALIC
 70
     0
 40
0.0
 41
1.0
 50
0.0
 71
     0
 42
0.9600000000000001
  3
ITALIC
  4

  0
STYLE
  5
53
330
3
100
AcDbSymbolTableRecord
100
AcDbTextStyleTableRecord
  2
SIMPLEX
 70
     0
 40
0.0
 41
1.0
 50
0.0
 71
     0
 42
0.9600000000000001
  3
SIMPLEX
  4

  0
STYLE
  5
54
330
3
100
AcDbSymbolTableRecord
100
AcDbTextStyleTableRecord
  2
COMPLEX
 70
     0
 40
0.0
 41
1.0
 50
0.0
 71
     0
 42
0.9600000000000001
  3
COMPLEX
  4

  0
ENDTAB
  0
TABLE
  2
VIEW
  5
6
330
0
100
AcDbSymbolTable
 70
     0
  0
ENDTAB
  0
TABLE
  2
UCS
  5
7
330
0
100
AcDbSymbolTable
 70
     0
  0
ENDTAB
  0
TABLE
  2
APPID
  5
9
330
0
100
AcDbSymbolTable
 70
     1
  0
APPID
  5
12
330
9
100
AcDbSymbolTableRecord
100
AcDbRegAppTableRecord
  2
ACAD
 70
     0
  0
ENDTAB
  0
TABLE
  2
DIMSTYLE
  5
A
330
0
100
AcDbSymbolTable
 70
     1
100
AcDbDimStyleTable
 71
     0
  0
DIMSTYLE
105
29
330
A
100
AcDbSymbolTableRecord
100
AcDbDimStyleTableRecord
  2
Standard
 70
     0
340
11
  0
ENDTAB
  0
TABLE
  2
BLOCK_RECORD
  5
1
330
0
100
AcDbSymbolTable
 70
     1
  0
BLOCK_RECORD
  5
21
330
1
100
AcDbSymbolTableRecord
100
AcDbBlockTableRecord
  2
*Model_Space
340
24
  0
BLOCK_RECORD
  5
1D
330
1
100
AcDbSymbolTableRecord
100
AcDbBlockTableRecord
  2
*Paper_Space
340
20
  0
BLOCK_RECORD
  5
25
330
1
100
AcDbSymbolTableRecord
100
AcDbBlockTableRecord
  2
*Paper_Space0
340
28
  0
ENDTAB
  0
ENDSEC
  0
SECTION
  2
BLOCKS
  0
BLOCK
  5
22
330
21
100
AcDbEntity
  8
0
100
AcDbBlockBegin
  2
*Model_Space
 70
     0
 10
0.0
 20
0.0
 30
0.0
  3
*Model_Space
  1

  0
ENDBLK
  5
23
330
21
100
AcDbEntity
  8
0
100
AcDbBlockEnd
  0
BLOCK
  5
1E
330
1D
100
AcDbEntity
 67
     1
  8
0
100
AcDbBlockBegin
  2
*Paper_Space
 70
     0
 10
0.0
 20
0.0
 30
0.0
  3
*Paper_Space
  1

  0
ENDBLK
  5
1F
330
1D
100
AcDbEntity
 67
     1
  8
0
100
AcDbBlockEnd
  0
BLOCK
  5
26
330
25
100
AcDbEntity
  8
0
100
AcDbBlockBegin
  2
*Paper_Space0
 70
     0
 10
0.0
 20
0.0
 30
0.0
  3
*Paper_Space0
  1

  0
ENDBLK
  5
27
330
25
100
AcDbEntity
  8
0
100
AcDbBlockEnd
  0
ENDSEC
  0
SECTION
  2
ENTITIES
  0
LINE
  5
55
330
21
100
AcDbEntity
  8
1
  6
Continuous
 62
     7
100
AcDbLine
 10
31.19139205956923
 20
65.45995723338204
 30
0.0
 11
31.19586527978735
 21
52.96187823103274
 31
0.0
  0
LINE
  5
56
330
21
100
AcDbEntity
  8
1
  6
Continuous
 62
     7
100
AcDbLine
 10
29.19139205956922
 20
71.96494405238563
 30
0.0
 11
106.6949841114269
 21
71.96713351019869
 31
0.0
  0
LINE
  5
57
330
21
100
AcDbEntity
  8
1
  6
Continuous
 62
     7
100
AcDbLine
 10
104.6949841114269
 20
65.46679718902918
 30
0.0
 11
104.6945403251659
 21
52.93271257934967
 31
0.0
  0
LINE
  5
58
330
21
100
AcDbEntity
  8
1
  6
Continuous
 62
     7
100
AcDbLine
 10
31.19586527978735
 20
58.9667877293562
 30
0.0
 11
55.69340744134116
 21
58.9667877293562
 31
0.0
  0
LINE
  5
59
330
21
100
AcDbEntity
  8
1
  6
Continuous
 62
     7
100
AcDbLine
 10
31.20364544096185
 20
45.71678772935618
 30
0.0
 11
104.6949841114269
 21
45.71678772935618
 31
0.0
  0
LINE
  5
5A
330
21
100
AcDbEntity
  8
1
  6
Continuous
 62
     7
100
AcDbLine
 10
104.1913806847118
 20
53.72541175075483
 30
0.0
 11
31.44086036316954
 21
53.72700968227348
 31
0.0
  0
POLYLINE
  5
5B
330
21
100
AcDbEntity
  8
1
  6
Continuous
 62
     7
100
AcDb2dPolyline
 66
     1
 10
0.0
 20
0.0
 30
0.0
  0
VERTEX
  5
5C
330
5B
100
AcDbEntity
  8
1
  6
Continuous
 62
     7
100
AcDbVertex
100
AcDb2dVertex
 10
34.60462102909014
 20
59.48357086349854
 30
0.0
  0
VERTEX
  5
5D
330
5B
100
AcDbEntity
  8
1
  6
Continuous
 62
     7
100
AcDbVertex
100
AcDb2dVertex
 10
33.53939129914204
 20
59.45936180116109
 30
0.0
  0
VERTEX
  5
5E
330
5B
100
AcDbEntity
  8
1
  6
Continuous
 62
     7
100
AcDbVertex
100
AcDb2dVertex
 10
32.82614424977323
 20
59.39824202471694
 30
0.0
  0
VERTEX
  5
5F
330
5B
100
AcDbEntity
  8
1
  6
Continuous
 62
     7
100
AcDbVertex
100
AcDb2dVertex
 10
32.16384341821646
 20
59.30656236005074
 30
0.0
  0
VERTEX
  5
60
330
5B
100
AcDbEntity
  8
1
  6
Continuous
 62
     7
100
AcDbVertex
100
AcDb2dVertex
 10
31.60343502228382
 20
59.18432280716247
 30
0.0
  0
VERTEX
  5
61
330
5B
100
AcDbEntity
  8
1
  6
Continuous
 62
     7
100
AcDbVertex
100
AcDb2dVertex
 10
31.19586527978735
 20
59.00096347783004
 30
0.0
  0
SEQEND
  5
62
330
5B
100
AcDbEntity
  8
1
  6
Continuous
 62
     7
  0
LINE
  5
63
330
21
100
AcDbEntity
  8
1
  6
Continuous
 62
     7
100
AcDbLine
 10
34.60468394912906
 20
59.48357086349854
 30
0.0
 11
52.25700245531216
 21
59.48357086349854
 31
0.0
  0
POLYLINE
  5
64
330
21
100
AcDbEntity
  8
1
  6
Continuous
 62
     7
100
AcDb2dPolyline
 66
     1
 10
0.0
 20
0.0
 30
0.0
  0
VERTEX
  5
65
330
64
100
AcDbEntity
  8
1
  6
Continuous
 62
     7
100
AcDbVertex
100
AcDb2dVertex
 10
52.25690645228537
 20
59.48357086349854
 30
0.0
  0
VERTEX
  5
66
330
64
100
AcDbEntity
  8
1
  6
Continuous
 62
     7
100
AcDbVertex
100
AcDb2dVertex
 10
53.33080651722461
 20
59.45764744110403
 30
0.0
  0
VERTEX
  5
67
330
64
100
AcDbEntity
  8
1
  6
Continuous
 62
     7
100
AcDbVertex
100
AcDb2dVertex
 10
54.0498589723905
 20
59.39219947953764
 30
0.0
  0
VERTEX
  5
68
330
64
100
AcDbEntity
  8
1
  6
Continuous
 62
     7
100
AcDbVertex
100
AcDb2dVertex
 10
54.71755053790168
 20
59.29402753718808
 30
0.0
  0
VERTEX
  5
69
330
64
100
AcDbEntity
  8
1
  6
Continuous
 62
     7
100
AcDbVertex
100
AcDb2dVertex
 10
55.28252032410349
 20
59.16313161405534
 30
0.0
  0
VERTEX
  5
6A
330
64
100
AcDbEntity
  8
1
  6
Continuous
 62
     7
100
AcDbVertex
100
AcDb2dVertex
 10
55.69340744134116
 20
58.9667877293562
 30
0.0
  0
SEQEND
  5
6B
330
64
100
AcDbEntity
  8
1
  6
Continuous
 62
     7
  0
LINE
  5
6C
330
21
100
AcDbEntity
  8
1
  6
Continuous
 62
     7
100
AcDbLine
 10
31.19586527978735
 20
53.2270096822735
 30
0.0
 11
31.19586527978735
 21
45.71678772935618
 31
0.0
  0
LINE
  5
6D
330
21
100
AcDbEntity
  8
1
  6
Continuous
 62
     7
100
AcDbLine
 10
104.6945403251659
 20
53.18271257934967
 30
0.0
 11
104.6945403251659
 21
45.67249062643237
 31
0.0
  0
LINE
  5
6E
330
21
100
AcDbEntity
  8
1
  6
Continuous
 62
     7
100
AcDbLine
 10
29.19586527978734
 20
45.71678772935618
 30
0.0
 11
29.19586527978734
 21
41.71678772935619
 31
0.0
  0
LINE
  5
6F
330
21
100
AcDbEntity
  8
1
  6
Continuous
 62
     7
100
AcDbLine
 10
30.19586527978734
 20
41.71678772935619
 30
0.0
 11
30.19586527978734
 21
45.71678772935618
 31
0.0
  0
LINE
  5
70
330
21
100
AcDbEntity
  8
1
  6
Continuous
 62
     7
100
AcDbLine
 10
29.19586527978734
 20
41.71678772935619
 30
0.0
 11
30.19586527978734
 21
41.71678772935619
 31
0.0
  0
LINE
  5
71
330
21
100
AcDbEntity
  8
1
  6
Continuous
 62
     7
100
AcDbLine
 10
29.44586527978734
 20
41.46678772935619
 30
0.0
 11
29.94586527978734
 21
41.46678772935619
 31
0.0
  0
LINE
  5
72
330
21
100
AcDbEntity
  8
1
  6
Continuous
 62
     7
100
AcDbLine
 10
105.6945403251658
 20
45.67249062643237
 30
0.0
 11
105.6945403251658
 21
41.6724906264324
 31
0.0
  0
LINE
  5
73
330
21
100
AcDbEntity
  8
1
  6
Continuous
 62
     7
100
AcDbLine
 10
106.6945403251658
 20
41.6724906264324
 30
0.0
 11
106.6945403251658
 21
45.67249062643237
 31
0.0
  0
LINE
  5
74
330
21
100
AcDbEntity
  8
1
  6
Continuous
 62
     7
100
AcDbLine
 10
105.6945403251658
 20
41.67249062643241
 30
0.0
 11
106.6945403251658
 21
41.67249062643241
 31
0.0
  0
LINE
  5
75
330
21
100
AcDbEntity
  8
1
  6
Continuous
 62
     7
100
AcDbLine
 10
105.9445403251658
 20
41.42249062643241
 30
0.0
 11
106.4445403251658
 21
41.42249062643241
 31
0.0
  0
ARC
  5
76
330
21
100
AcDbEntity
  8
1
  6
Continuous
 62
     7
100
AcDbCircle
 10
29.44586527978734
 20
41.71678772935619
 30
0.0
 40
0.25
100
AcDbArc
 50
180.0
 51
270.0000000000001
  0
ARC
  5
77
330
21
100
AcDbEntity
  8
1
  6
Continuous
 62
     7
100
AcDbCircle
 10
29.94586527978734
 20
41.71678772935619
 30
0.0
 40
0.25
100
AcDbArc
 50
270.0000000000001
 51
0.0
  0
ARC
  5
78
330
21
100
AcDbEntity
  8
1
  6
Continuous
 62
     7
100
AcDbCircle
 10
105.9445403251658
 20
41.67249062643241
 30
0.0
 40
0.25
100
AcDbArc
 50
180.0
 51
270.0000000000001
  0
ARC
  5
79
330
21
100
AcDbEntity
  8
1
  6
Continuous
 62
     7
100
AcDbCircle
 10
106.4445403251658
 20
41.67249062643241
 30
0.0
 40
0.25
100
AcDbArc
 50
270.0000000000001
 51
0.0
  0
ARC
  5
7A
330
21
100
AcDbEntity
  8
1
  6
Continuous
 62
     7
100
AcDbCircle
 10
31.69586527978735
 20
54.2270096822735
 30
0.0
 40
0.5
100
AcDbArc
 50
179.9999999999992
 51
270.0000000000001
  0
ARC
  5
7B
330
21
100
AcDbEntity
  8
1
  6
Continuous
 62
     7
100
AcDbCircle
 10
31.69586527978735
 20
53.2270096822735
 30
0.0
 40
0.5
100
AcDbArc
 50
90.00000000000005
 51
179.9999999999992
  0
ARC
  5
7C
330
21
100
AcDbEntity
  8
1
  6
Continuous
 62
     7
100
AcDbCircle
 10
104.1945403251659
 20
54.18271257934968
 30
0.0
 40
0.5
100
AcDbArc
 50
270.0000000000001
 51
0.0
  0
ARC
  5
7D
330
21
100
AcDbEntity
  8
1
  6
Continuous
 62
     7
100
AcDbCircle
 10
104.1945403251659
 20
53.18271257934967
 30
0.0
 40
0.5
100
AcDbArc
 50
0.0000000000008142
 51
90.00000000000005
  0
LINE
  5
7E
330
21
100
AcDbEntity
  8
1
  6
ByBlock
 62
     7
100
AcDbLine
 10
31.19586527978735
 20
45.71678772935618
 30
0.0
 11
29.20033850000546
 21
45.71678772935618
 31
0.0
  0
LINE
  5
7F
330
21
100
AcDbEntity
  8
1
  6
ByBlock
 62
     7
100
AcDbLine
 10
106.6945403251658
 20
45.71679718902916
 30
0.0
 11
104.6945403251659
 21
45.71679718902916
 31
0.0
  0
LINE
  5
80
330
21
100
AcDbEntity
  8
1
  6
ByBlock
 62
     7
100
AcDbLine
 10
31.19139205956923
 20
65.4667877293562
 30
0.0
 11
29.19577743363515
 21
65.4667877293562
 31
0.0
  0
LINE
  5
81
330
21
100
AcDbEntity
  8
1
  6
Continuous
 62
     7
100
AcDbLine
 10
104.6946298559649
 20
70.96603894245813
 30
0.0
 11
31.19197520234079
 21
70.96602895667769
 31
0.0
  0
LINE
  5
82
330
21
100
AcDbEntity
  8
1
  6
ByBlock
 62
     7
100
AcDbLine
 10
31.19197520234078
 20
70.96602895667769
 30
0.0
 11
31.1920526356871
 21
65.48172165974171
 31
0.0
  0
LINE
  5
83
330
21
100
AcDbEntity
  8
1
  6
ByBlock
 62
     7
100
AcDbLine
 10
104.6946298559648
 20
70.96603894245813
 30
0.0
 11
104.6949249311964
 21
65.46679718902918
 31
0.0
  0
LINE
  5
84
330
21
100
AcDbEntity
  8
1
  6
Continuous
 62
     7
100
AcDbLine
 10
29.19139205956924
 20
71.96494405238563
 30
0.0
 11
29.19586527978735
 21
45.77730772192743
 31
0.0
  0
LWPOLYLINE
  5
85
330
21
100
AcDbEntity
  8
1
  6
ByBlock
 62
     7
100
AcDbPolyline
 90
        2
 70
     0
 43
0.0
 10
104.6949841114269
 20
65.46753506016473
 10
106.6949828018775
 20
65.46747602575033
  0
LWPOLYLINE
  5
86
330
21
100
AcDbEntity
  8
1
  6
Continuous
 62
     7
100
AcDbPolyline
 90
        2
 70
     0
 43
0.0
 10
106.6949883785473
 20
71.96713351012727
 10
106.6948774392634
 20
65.46747602886033
  0
LWPOLYLINE
  5
87
330
21
100
AcDbEntity
  8
1
  6
Continuous
 62
     7
100
AcDbPolyline
 90
        2
 70
     0
 43
0.0
 10
106.6948774392634
 20
65.46747602886033
 10
106.6945403251659
 20
45.71679718902916
  0
LINE
  5
88
330
21
100
AcDbEntity
  8
1
  6
Continuous
 62
     7
100
AcDbLine
 10
80.1909495582586
 20
58.96515161165979
 30
0.0
 11
55.69340745134117
 21
58.96678773935619
 31
0.0
  0
POLYLINE
  5
89
330
21
100
AcDbEntity
  8
1
  6
Continuous
 62
     7
100
AcDb2dPolyline
 66
     1
 10
0.0
 20
0.0
 30
0.0
  0
VERTEX
  5
8A
330
89
100
AcDbEntity
  8
1
  6
Continuous
 62
     7
100
AcDbVertex
100
AcDb2dVertex
 10
76.78224390712511
 20
59.48216240613955
 30
0.0
  0
VERTEX
  5
8B
330
89
100
AcDbEntity
  8
1
  6
Continuous
 62
     7
100
AcDbVertex
100
AcDb2dVertex
 10
77.84747123649911
 20
59.45790165184799
 30
0.0
  0
VERTEX
  5
8C
330
89
100
AcDbEntity
  8
1
  6
Continuous
 62
     7
100
AcDbVertex
100
AcDb2dVertex
 10
78.5607122296294
 20
59.39674036400447
 30
0.0
  0
VERTEX
  5
8D
330
89
100
AcDbEntity
  8
1
  6
Continuous
 62
     7
100
AcDbVertex
100
AcDb2dVertex
 10
79.2230039777374
 20
59.30501678709151
 30
0.0
  0
VERTEX
  5
8E
330
89
100
AcDbEntity
  8
1
  6
Continuous
 62
     7
100
AcDbVertex
100
AcDb2dVertex
 10
79.78340026312462
 20
59.18273321546565
 30
0.0
  0
VERTEX
  5
8F
330
89
100
AcDbEntity
  8
1
  6
Continuous
 62
     7
100
AcDbVertex
100
AcDb2dVertex
 10
80.19095184076876
 20
58.99932736005741
 30
0.0
  0
SEQEND
  5
90
330
89
100
AcDbEntity
  8
1
  6
Continuous
 62
     7
  0
LINE
  5
91
330
21
100
AcDbEntity
  8
1
  6
Continuous
 62
     7
100
AcDbLine
 10
76.78230682716402
 20
59.48216240613955
 30
0.0
 11
59.12998832098092
 21
59.48216240613955
 31
0.0
  0
POLYLINE
  5
92
330
21
100
AcDbEntity
  8
1
  6
Continuous
 62
     7
100
AcDb2dPolyline
 66
     1
 10
0.0
 20
0.0
 30
0.0
  0
VERTEX
  5
93
330
92
100
AcDbEntity
  8
1
  6
Continuous
 62
     7
100
AcDbVertex
100
AcDb2dVertex
 10
59.12995624078927
 20
59.48216240613955
 30
0.0
  0
VERTEX
  5
94
330
92
100
AcDbEntity
  8
1
  6
Continuous
 62
     7
100
AcDbVertex
100
AcDb2dVertex
 10
58.05605378004679
 20
59.4563530001833
 30
0.0
  0
VERTEX
  5
95
330
92
100
AcDbEntity
  8
1
  6
Continuous
 62
     7
100
AcDbVertex
100
AcDb2dVertex
 10
57.33699527183681
 20
59.3910970665966
 30
0.0
  0
VERTEX
  5
96
330
92
100
AcDbEntity
  8
1
  6
Continuous
 62
     7
100
AcDbVertex
100
AcDb2dVertex
 10
56.6692946258431
 20
59.29319340229429
 30
0.0
  0
VERTEX
  5
97
330
92
100
AcDbEntity
  8
1
  6
Continuous
 62
     7
100
AcDbVertex
100
AcDb2dVertex
 10
56.10431273160578
 20
59.16263953678605
 30
0.0
  0
VERTEX
  5
98
330
92
100
AcDbEntity
  8
1
  6
Continuous
 62
     7
100
AcDbVertex
100
AcDb2dVertex
 10
55.69340745134117
 20
58.96678773935619
 30
0.0
  0
SEQEND
  5
99
330
92
100
AcDbEntity
  8
1
  6
Continuous
 62
     7
  0
ARC
  5
9A
330
21
100
AcDbEntity
  8
1
  6
Continuous
 62
     7
100
AcDbCircle
 10
104.1914140784234
 20
54.22541174963971
 30
0.0
 40
0.5000000000000071
100
AcDbArc
 50
269.9961733627057
 51
359.9961733627057
  0
ARC
  5
9B
330
21
100
AcDbEntity
  8
1
  6
Continuous
 62
     7
100
AcDbCircle
 10
104.191347291001
 20
53.22541175186998
 30
0.0
 40
0.4999999999999858
100
AcDbArc
 50
359.9961733626107
 51
89.99617336261232
  0
LINE
  5
9C
330
21
100
AcDbEntity
  8
1
  6
ByBlock
 62
     7
100
AcDbLine
 10
55.69340745134117
 20
58.96678773935619
 30
0.0
 11
55.69323337479693
 21
53.72620409084202
 31
0.0
  0
LINE
  5
9D
330
21
100
AcDbEntity
  8
1
  6
Continuous
 62
     7
100
AcDbLine
 10
104.6883157915653
 20
58.96435449079223
 30
0.0
 11
80.19077368464786
 21
58.96599061848863
 31
0.0
  0
POLYLINE
  5
9E
330
21
100
AcDbEntity
  8
1
  6
Continuous
 62
     7
100
AcDb2dPolyline
 66
     1
 10
0.0
 20
0.0
 30
0.0
  0
VERTEX
  5
9F
330
9E
100
AcDbEntity
  8
1
  6
Continuous
 62
     7
100
AcDbVertex
100
AcDb2dVertex
 10
101.2796101404318
 20
59.48136528527198
 30
0.0
  0
VERTEX
  5
A0
330
9E
100
AcDbEntity
  8
1
  6
Continuous
 62
     7
100
AcDbVertex
100
AcDb2dVertex
 10
102.3448374698058
 20
59.45710453098041
 30
0.0
  0
VERTEX
  5
A1
330
9E
100
AcDbEntity
  8
1
  6
Continuous
 62
     7
100
AcDbVertex
100
AcDb2dVertex
 10
103.0580784629361
 20
59.3959432431369
 30
0.0
  0
VERTEX
  5
A2
330
9E
100
AcDbEntity
  8
1
  6
Continuous
 62
     7
100
AcDbVertex
100
AcDb2dVertex
 10
103.7203702110441
 20
59.30421966622393
 30
0.0
  0
VERTEX
  5
A3
330
9E
100
AcDbEntity
  8
1
  6
Continuous
 62
     7
100
AcDbVertex
100
AcDb2dVertex
 10
104.2807664964313
 20
59.18193609459808
 30
0.0
  0
VERTEX
  5
A4
330
9E
100
AcDbEntity
  8
1
  6
Continuous
 62
     7
100
AcDbVertex
100
AcDb2dVertex
 10
104.6883180740754
 20
58.99853023918984
 30
0.0
  0
SEQEND
  5
A5
330
9E
100
AcDbEntity
  8
1
  6
Continuous
 62
     7
  0
LINE
  5
A6
330
21
100
AcDbEntity
  8
1
  6
Continuous
 62
     7
100
AcDbLine
 10
101.2796730604707
 20
59.48136528527198
 30
0.0
 11
83.6273545542876
 21
59.48136528527198
 31
0.0
  0
POLYLINE
  5
A7
330
21
100
AcDbEntity
  8
1
  6
Continuous
 62
     7
100
AcDb2dPolyline
 66
     1
 10
0.0
 20
0.0
 30
0.0
  0
VERTEX
  5
A8
330
A7
100
AcDbEntity
  8
1
  6
Continuous
 62
     7
100
AcDbVertex
100
AcDb2dVertex
 10
83.62732247409596
 20
59.48136528527198
 30
0.0
  0
VERTEX
  5
A9
330
A7
100
AcDbEntity
  8
1
  6
Continuous
 62
     7
100
AcDbVertex
100
AcDb2dVertex
 10
82.55342001335348
 20
59.45555587931573
 30
0.0
  0
VERTEX
  5
AA
330
A7
100
AcDbEntity
  8
1
  6
Continuous
 62
     7
100
AcDbVertex
100
AcDb2dVertex
 10
81.83436150514351
 20
59.39029994572905
 30
0.0
  0
VERTEX
  5
AB
330
A7
100
AcDbEntity
  8
1
  6
Continuous
 62
     7
100
AcDbVertex
100
AcDb2dVertex
 10
81.1666608591498
 20
59.29239628142672
 30
0.0
  0
VERTEX
  5
AC
330
A7
100
AcDbEntity
  8
1
  6
Continuous
 62
     7
100
AcDbVertex
100
AcDb2dVertex
 10
80.60167896491249
 20
59.16184241591848
 30
0.0
  0
VERTEX
  5
AD
330
A7
100
AcDbEntity
  8
1
  6
Continuous
 62
     7
100
AcDbVertex
100
AcDb2dVertex
 10
80.19077368464786
 20
58.96599061848863
 30
0.0
  0
SEQEND
  5
AE
330
A7
100
AcDbEntity
  8
1
  6
Continuous
 62
     7
  0
LINE
  5
AF
330
21
100
AcDbEntity
  8
1
  6
ByBlock
 62
     7
100
AcDbLine
 10
80.19077368464786
 20
58.96599061848863
 30
0.0
 11
80.19059960810363
 21
53.72540696997446
 31
0.0
  0
ENDSEC
  0
SECTION
  2
OBJECTS
  0
DICTIONARY
  5
C
330
0
100
AcDbDictionary
281
     1
  3
ACAD_COLOR
350
1C
  3
ACAD_GROUP
350
D
  3
ACAD_LAYOUT
350
1A
  3
ACAD_MATERIAL
350
1B
  3
ACAD_MLINESTYLE
350
17
  3
ACAD_PLOTSETTINGS
350
19
  3
ACAD_PLOTSTYLENAME
350
E
  3
ACDBHEADERROUNDTRIPXREC
350
B4
  3
AcDbVariableDictionary
350
B0
  0
DICTIONARY
  5
1C
102
{ACAD_REACTORS
330
C
102
}
330
C
100
AcDbDictionary
281
     1
  0
DICTIONARY
  5
D
102
{ACAD_REACTORS
330
C
102
}
330
C
100
AcDbDictionary
281
     1
  0
DICTIONARY
  5
1A
102
{ACAD_REACTORS
330
C
102
}
330
C
100
AcDbDictionary
281
     1
  3
Layout1
350
20
  3
Layout2
350
28
  3
Model
350
24
  0
DICTIONARY
  5
1B
102
{ACAD_REACTORS
330
C
102
}
330
C
100
AcDbDictionary
281
     1
  0
DICTIONARY
  5
17
102
{ACAD_REACTORS
330
C
102
}
330
C
100
AcDbDictionary
281
     1
  3
Standard
350
18
  0
DICTIONARY
  5
19
102
{ACAD_REACTORS
330
C
102
}
330
C
100
AcDbDictionary
281
     1
  0
ACDBDICTIONARYWDFLT
  5
E
102
{ACAD_REACTORS
330
C
102
}
330
C
100
AcDbDictionary
281
     1
  3
Normal
350
F
100
AcDbDictionaryWithDefault
340
F
  0
DICTIONARY
  5
B4
102
{ACAD_REACTORS
330
C
102
}
330
C
100
AcDbDictionary
281
     1
  0
DICTIONARY
  5
B0
102
{ACAD_REACTORS
330
C
102
}
330
C
100
AcDbDictionary
281
     1
  3
DIMASSOC
350
B2
  3
HIDETEXT
350
B1
  3
PROJECTNAME
350
B3
  0
LAYOUT
  5
20
102
{ACAD_XDICTIONARY
360
B5
102
}
102
{ACAD_REACTORS
330
1A
102
}
330
1A
100
AcDbPlotSettings
  1

  2

  4

  6

 40
0.0
 41
0.0
 42
0.0
 43
0.0
 44
0.0
 45
0.0
 46
0.0
 47
0.0
 48
0.0
 49
0.0
140
0.0
141
0.0
142
1.0
143
1.0
 70
   688
 72
     0
 73
     0
 74
     5
  7

 75
    16
147
1.0
148
0.0
149
0.0
100
AcDbLayout
  1
Layout1
 70
     1
 71
     1
 10
0.0
 20
0.0
 11
12.0
 21
9.0
 12
0.0
 22
0.0
 32
0.0
 14
0.0
 24
0.0
 34
0.0
 15
0.0
 25
0.0
 35
0.0
146
0.0
 13
0.0
 23
0.0
 33
0.0
 16
1.0
 26
0.0
 36
0.0
 17
0.0
 27
1.0
 37
0.0
 76
     0
330
1D
  0
LAYOUT
  5
28
102
{ACAD_XDICTIONARY
360
B9
102
}
102
{ACAD_REACTORS
330
1A
102
}
330
1A
100
AcDbPlotSettings
  1

  2

  4

  6

 40
0.0
 41
0.0
 42
0.0
 43
0.0
 44
0.0
 45
0.0
 46
0.0
 47
0.0
 48
0.0
 49
0.0
140
0.0
141
0.0
142
1.0
143
1.0
 70
   688
 72
     0
 73
     0
 74
     5
  7

 75
    16
147
1.0
148
0.0
149
0.0
100
AcDbLayout
  1
Layout2
 70
     1
 71
     2
 10
0.0
 20
0.0
 11
12.0
 21
9.0
 12
0.0
 22
0.0
 32
0.0
 14
0.0
 24
0.0
 34
0.0
 15
0.0
 25
0.0
 35
0.0
146
0.0
 13
0.0
 23
0.0
 33
0.0
 16
1.0
 26
0.0
 36
0.0
 17
0.0
 27
1.0
 37
0.0
 76
     0
330
25
  0
LAYOUT
  5
24
102
{ACAD_XDICTIONARY
360
B7
102
}
102
{ACAD_REACTORS
330
1A
102
}
330
1A
100
AcDbPlotSettings
  1

  2

  4

  6

 40
0.0
 41
0.0
 42
0.0
 43
0.0
 44
0.0
 45
0.0
 46
0.0
 47
0.0
 48
0.0
 49
0.0
140
0.0
141
0.0
142
1.0
143
1.0
 70
  1712
 72
     0
 73
     0
 74
     0
  7

 75
     0
147
1.0
148
0.0
149
0.0
100
AcDbLayout
  1
Model
 70
     1
 71
     0
 10
0.0
 20
0.0
 11
12.0
 21
9.0
 12
0.0
 22
0.0
 32
0.0
 14
0.0
 24
0.0
 34
0.0
 15
0.0
 25
0.0
 35
0.0
146
0.0
 13
0.0
 23
0.0
 33
0.0
 16
1.0
 26
0.0
 36
0.0
 17
0.0
 27
1.0
 37
0.0
 76
     0
330
21
  0
MLINESTYLE
  5
18
102
{ACAD_REACTORS
330
17
102
}
330
17
100
AcDbMlineStyle
  2
STANDARD
 70
     0
  3

 62
   256
 51
90.0
 52
90.0
 71
     2
 49
0.5
 62
   256
  6
BYLAYER
 49
-0.5
 62
   256
  6
BYLAYER
  0
ACDBPLACEHOLDER
  5
F
102
{ACAD_REACTORS
330
E
102
}
330
E
  0
DICTIONARYVAR
  5
B2
102
{ACAD_REACTORS
330
B0
102
}
330
B0
100
DictionaryVariables
280
     0
  1
2
  0
DICTIONARYVAR
  5
B1
102
{ACAD_REACTORS
330
B0
102
}
330
B0
100
DictionaryVariables
280
     0
  1
1
  0
DICTIONARYVAR
  5
B3
102
{ACAD_REACTORS
330
B0
102
}
330
B0
100
DictionaryVariables
280
     0
  1

  0
DICTIONARY
  5
B5
330
20
100
AcDbDictionary
280
     1
281
     1
  3
ACAD_XREC_ROUNDTRIP
360
B6
  0
DICTIONARY
  5
B9
330
28
100
AcDbDictionary
280
     1
281
     1
  3
ACAD_XREC_ROUNDTRIP
360
BA
  0
DICTIONARY
  5
B7
330
24
100
AcDbDictionary
280
     1
281
     1
  3
ACAD_XREC_ROUNDTRIP
360
B8
  0
XRECORD
  5
B6
102
{ACAD_REACTORS
330
B5
102
}
330
B5
100
AcDbXrecord
280
     1
102
SHADEPLOT
 70
     0
102
SHADEPLOTRESLEVEL
 70
     2
102
SHADEPLOTCUSTOMDPI
 70
   300
  0
XRECORD
  5
BA
102
{ACAD_REACTORS
330
B9
102
}
330
B9
100
AcDbXrecord
280
     1
102
SHADEPLOT
 70
     0
102
SHADEPLOTRESLEVEL
 70
     2
102
SHADEPLOTCUSTOMDPI
 70
   300
  0
XRECORD
  5
B8
102
{ACAD_REACTORS
330
B7
102
}
330
B7
100
AcDbXrecord
280
     1
102
SHADEPLOT
 70
     0
102
SHADEPLOTRESLEVEL
 70
     2
102
SHADEPLOTCUSTOMDPI
 70
   300
  0
ENDSEC
  0
EOF
